Home > Country > Alison Krauss >
I WIll Guitar Tablature
This is "I Will" by Allison Krauss 

This isn't the whole song, so if you know more than this e-mail me.
[email protected]ail.com


e:8h9---11-11-14-11/13---13/9---8-8/9--8-8-8h9-2/4---4-4-4-2-1-|
B:------------------------------9-9------------------4---------|
G:-------------------------------------------------------------| 
D:-------------------------------------------------------------| 
A:-------------------------------------------------------------| 
E:-------------------------------------------------------------| 


                                                      
				Repeat This 2x

e: ----4-1-----2------4-1---4---4-9-6-2---4-2-1--------4-9-6-2---------|
B: 1-2-----2-4----1-2-----2-------------4-------2-1-2----------4--2-1-2|
G:---------------------------------------------------------------------|
D:---------------------------------------------------------------------|
A:---------------------------------------------------------------------|
E:---------------------------------------------------------------------|



Tabbed by Rydog
Previous guitar tablature in Alison Krauss