Home > Country > Garth Brooks >
Cowboys and Angels Guitar Tablature
Send any corrections or suggestions to [email protected]g.org (Alaa) (Egypt)


        (E)     (B7)            (E)           
On the eight day God noticed a problem,

                            (B7)    (E) 
for there before him stood a cowboy alone.. . . .. . .

Guitar 2 (Electric Clean)                         1      1
|-----------------------------------------------------------|-------
|-----------------------------------------------------------|-------
|-----------------------------------------------------------|-------
|-----------------------------------------------------------|-------
|-----------------------------------------------------------|-------
|------------------------------------------------2^-----2^2-|--0----
				        Volume Swell<			


A                   E
Stubborn and proud, reckless and loud,


     F#                            B            2nd Verse        
God knew he'd never make it on his own                  So God 
|------------------------------------------|----------------|
|------------------------------------------|----------------|
|------------------------------------------|----------------|
|------------------------------------------|----------------|
|-----------------------------------2------|--2-------------|
|------------------------------------------|-------4----2---|              


  E            B7      E   
  looked down all over creation,
|----------------|--------0-------
|----------------|--------0-------
|----------------|--------1-------
|----------------|--------2-------
|----------------|2---------------
|-0--------------|----------------



               B7           E
and listed as that cowboy prayed.

			|------------------------------------------|
			|------------------------------------------|	
			|------------------------------------------|
			|------------------------------------------|
			|------------------------------------------|
			|-----------------0-----2-----4------------|


         A          
God took passion and thunder,
|------------------------------------------|
|------------------------------------------|
|------------------------------------------|
|------------------------------------------|
|--------0----------(0)--------------------|
|------------------------------------------|
                      


E
patience and wonder,
|------------------------------------------|
|------------------------------------------|
|------------------------------------------|
|------------------------------------------|
|------------------------------------------|
|-0----------(0)---------------------------|


               
			                    B7
then he sent down the best thing that God ever made.
|------------------------------------------||----------------------|
|------------------------------------------||----------------------|
|------------------------------------------||----------------------|
|------------------------------------------||----------------------|
|-----------------0-------------------2----||------2---------------|
|-------0------------------0---------------||-----------2------4---|




CHORUS

A                                
Cowboys and angles,             
|------------------------------------------|
|----------------------2h3-----------------|
|--------------------2---------------------|
|------------------2-----------------------|
|----------------0-------------------------|
|------------------------------------------|


 D         A
leather and lace,          1/2  1/2
|------------------------------------------|
|------------------------------------------|
|------------------------------------------|
|----------------------2-------------------|
|---------------/4-------------------------|
|-------------------------2^r---2^---0-----|



E                           B7      E
salt of the earth    meets heavenly grace.
|---------------------------------------------------------------|
|---------------------------------------------------------------|
|---------------------------------------------------------------|
|-------------------------------------------2-------------------|
|----------------------0--1--2------------------4----2----0-----|
|----------------0---4------------------------------------------|




|------------------------------------------|
|------------------------------------------|
|------------------------------------------|
|--2---------------------------------------|
|------4----2----0-------------------------|
|------------------------------------------|



A                      D          A
Cowboys and angles,    tested and tried,              1/2
|----------------------------------------||------------------------------|
|---------------------2h3----------------||------------------------------|
|--------------------2-------------------||------------------------------|
|-------------------2--------------------||-------2--4^r---2-------------|
|------------------0---------------------||-/4---------------------------|
|----------------------------------------||------------------------------|

         E                        B7
it's a long way to heaven and one hell of a ride.



3rd Verse

Nothin's changed since the dawn of creation,
For you will find them together today.
And only heaven adove tham, knows why she loves him,
But it must be the reason, she don't fly away.
(To Chorus)

Outro
|--0-----2-----4-|--------------------|-------------------0-----|
|----------------|-2h3--2-------------|-------------------0-----|
|----------------|-----------4-----2--|--5----4---2-------1-----|
|----------------|--------------------|--7----6---4-------2-----|
|----------------|--------------------|-------------------2-----|
|----------------|--------------------|-------------------0-----|
Next guitar tablature in Garth Brooks